  0
SECTION
  2
HEADER
  9
$ACADVER
  1
AC1009
  9
$INSBASE
 10
0
 20
0
 30
0
  9
$EXTMIN
 10
0
 20
0
  9
$EXTMAX
 10
1260
 20
891
  9
$LIMMIN
 10
0
 20
0
  9
$LIMMAX
 10
1260
 20
891
  9
$LTSCALE
 40
3
  0
ENDSEC
  0
SECTION
  2
TABLES
  0
TABLE
  2
LTYPE
 70
     9
  0
LTYPE
  2
CONTINUOUS
 70
    64
  3
実線
 72
    65
 73
     0
 40
0.0
  0
LTYPE
  2
DASHED1
 70
    64
  3
--  --  --  --  --  --  --  --  
 72
    65
 73
     2
 40
2.5
 49
1.25
 49
-1.25
  0
LTYPE
  2
DASHED2
 70
    64
  3
----    ----    ----    ----    
 72
    65
 73
     2
 40
5.0
 49
2.5
 49
-2.5
  0
LTYPE
  2
DASHED3
 70
    64
  3
------  ------  ------  ------  
 72
    65
 73
     2
 40
5.0
 49
3.75
 49
-1.25
  0
LTYPE
  2
CENTER1
 70
    64
  3
----- - ----- - ----- - ----- - 
 72
    65
 73
     4
 40
10.0
 49
6.25
 49
-1.25
 49
1.25
 49
-1.25
  0
LTYPE
  2
CENTER2
 70
    64
  3
----------  --  ----------  --  
 72
    65
 73
     4
 40
20.0
 49
12.5
 49
-2.5
 49
2.5
 49
-2.5
  0
LTYPE
  2
PHANTOM1
 70
    64
  3
--- - - --- - - --- - - --- - - 
 72
    65
 73
     6
 40
10.0
 49
3.25
 49
-1.25
 49
1.25
 49
-1.25
 49
1.25
 49
-1.25
  0
LTYPE
  2
PHANTOM2
 70
    64
  3
--------  -  -  --------  -  -  
 72
    65
 73
     6
 40
20.0
 49
10.0
 49
-2.5
 49
1.25
 49
-2.5
 49
1.25
 49
-2.5
  0
LTYPE
  2
DOT
 70
    64
  3
-   -   -   -   -   -   -   -   
 72
    65
 73
     2
 40
2.5
 49
0.625
 49
-1.875
  0
LTYPE
  2
DUMMY
 70
    64
  3
ダミー
 72
    65
 73
     0
 40
0.0
  0
LTYPE
  2
RAND1
 70
    64
  3
ランダム線1
 72
    65
 73
     4
 40
10.0
 49
1.0
 49
-2.0
 49
3.0
 49
-4.0
  0
LTYPE
  2
RAND2
 70
    64
  3
ランダム線2
 72
    65
 73
     4
 40
14.0
 49
2.0
 49
-3.0
 49
4.0
 49
-5.0
  0
LTYPE
  2
RAND3
 70
    64
  3
ランダム線3
 72
    65
 73
     4
 40
18.0
 49
3.0
 49
-4.0
 49
5.0
 49
-6.0
  0
LTYPE
  2
RAND4
 70
    64
  3
ランダム線4
 72
    65
 73
     4
 40
22.0
 49
4.0
 49
-5.0
 49
6.0
 49
-7.0
  0
LTYPE
  2
RAND5
 70
    64
  3
ランダム線5
 72
    65
 73
     4
 40
26.0
 49
5.0
 49
-6.0
 49
7.0
 49
-8.0
  0
LTYPE
  2
LONG1
 70
    64
  3
----------  --  ----------  --  
 72
    65
 73
     4
 40
40.0
 49
32.5
 49
-2.5
 49
2.5
 49
-2.5
  0
LTYPE
  2
LONG2
 70
    64
  3
--------  -  -  --------  -  -  
 72
    65
 73
     6
 40
40.0
 49
30.0
 49
-2.5
 49
1.25
 49
-2.5
 49
1.25
 49
-2.5
  0
LTYPE
  2
LONG3
 70
    64
  3
+++++++++++++++..+++++++++++++++
 72
    65
 73
     2
 40
40.0
 49
37.5
 49
-2.5
  0
LTYPE
  2
LONG4
 70
    64
  3
+++++++++++++++..+++++++++++++++
 72
    65
 73
     2
 40
80.0
 49
75.0
 49
-5.0
  0
LTYPE
  2
LONG5
 70
    64
  3
----------  --  ----------  --  
 72
    65
 73
     4
 40
60.0
 49
37.5
 49
-7.5
 49
7.5
 49
-7.5
  0
LTYPE
  2
dashed
 70
   64
  3
-------   -------------   ------
 72
   65
 73
    2
 40
7.5
 49
6
 49
-1.5
  0
LTYPE
  2
dashed_spaced
 70
   64
  3
----        --------        ----
 72
   65
 73
    2
 40
12
 49
6
 49
-6
  0
LTYPE
  2
long_dashed_dotted
 70
   64
  3
------------- --- --------------
 72
   65
 73
    4
 40
15.25
 49
12
 49
-1.5
 49
0.25
 49
-1.5
  0
LTYPE
  2
long_dashed_double-dotted
 70
   64
  3
----------- --- --- ------------
 72
   65
 73
    6
 40
17
 49
12
 49
-1.5
 49
0.25
 49
-1.5
 49
0.25
 49
-1.5
  0
LTYPE
  2
long_dashed_triplicate-dotted
 70
   64
  3
--------- --- --- --- ----------
 72
   65
 73
    8
 40
18.75
 49
12
 49
-1.5
 49
0.25
 49
-1.5
 49
0.25
 49
-1.5
 49
0.25
 49
-1.5
  0
LTYPE
  2
dotted
 70
   64
  3
   -       -       -       -    
 72
   65
 73
    2
 40
1.75
 49
0.25
 49
-1.5
  0
LTYPE
  2
chain
 70
   64
  3
-------------- -- --------------
 72
   65
 73
    4
 40
18.5
 49
12
 49
-1.5
 49
3.5
 49
-1.5
  0
LTYPE
  2
chain_double_dash
 70
   64
  3
------------ -- -- -------------
 72
   65
 73
    6
 40
23.5
 49
12
 49
-1.5
 49
3.5
 49
-1.5
 49
3.5
 49
-1.5
  0
LTYPE
  2
dashed_dotted
 70
   64
  3
-----------     -     ----------
 72
   65
 73
    4
 40
9.25
 49
6
 49
-1.5
 49
0.25
 49
-1.5
  0
LTYPE
  2
double-dashed_dotted
 70
   64
  3
------   -----------   -   -----
 72
   65
 73
    6
 40
16.75
 49
6
 49
-1.5
 49
6
 49
-1.5
 49
0.25
 49
-1.5
  0
LTYPE
  2
dashed_double-dotted
 70
   64
  3
---------    -    -    ---------
 72
   65
 73
    6
 40
11
 49
6
 49
-1.5
 49
0.25
 49
-1.5
 49
0.25
 49
-1.5
  0
LTYPE
  2
double-dashed_double-dotted
 70
   64
  3
-----   ---------   -   -   ----
 72
   65
 73
    8
 40
18.5
 49
6
 49
-1.5
 49
6
 49
-1.5
 49
0.25
 49
-1.5
 49
0.25
 49
-1.5
  0
LTYPE
  2
dashed_triplicate-dotted
 70
   64
  3
-------    -    -    -    ------
 72
   65
 73
    8
 40
12.75
 49
6
 49
-1.5
 49
0.25
 49
-1.5
 49
0.25
 49
-1.5
 49
0.25
 49
-1.5
  0
LTYPE
  2
double-dashed_triplicate-dotted
 70
   64
  3
-----  ---------  -  -  -  -----
 72
   65
 73
   10
 40
20.25
 49
6
 49
-1.5
 49
6
 49
-1.5
 49
0.25
 49
-1.5
 49
0.25
 49
-1.5
 49
0.25
 49
-1.5
  0
LTYPE
  2
undefined
 70
   64
  3
--------------------------------
 72
   65
 73
    0
 40
0
  0
LTYPE
  2
CENTERX2
 70
   64
  3
----------    ----    ----------
 72
   65
 73
    4
 40
4
 49
2.5
 49
-0.5
 49
0.5
 49
-0.5
  0
ENDTAB
  0
TABLE
  2
STYLE
  5
3
100
AcDbSymbolTable
 70
     1
  0
STYLE
  5
10
100
AcDbSymbolTableRecord
100
AcDbTextStyleTableRecord
  2
STANDARD
 70
     0
 40
0.0
 41
1.0
 50
0.0
 71
     0
 42
0.2
  3
txt
  4
bigfont.shx
  0
STYLE
  5
26
100
AcDbSymbolTableRecord
100
AcDbTextStyleTableRecord
  2
TATEGAKI
 70
    68
 40
0.0
 41
1.0
 50
0.0
 71
     0
 42
1.0
  3
txt
  4
bigfont.shx
  0
ENDTAB
  0
TABLE
  2
LAYER
 70
    4
  0
LAYER
  2
_0-1_ZISSEN1
 70
   64
 62
    7
  6
CONTINUOUS
  0
LAYER
  2
_0-2_SUNPOU
 70
   64
 62
    7
  6
CONTINUOUS
  0
LAYER
  2
_0-3_CL1
 70
   64
 62
    7
  6
CONTINUOUS
  0
LAYER
  2
ADD_LINE
 70
   64
 62
    7
  6
CONTINUOUS
  0
ENDTAB
  0
ENDSEC
  0
SECTION
  2
BLOCKS
  0
BLOCK
  2
-000-_D24
 70
   64
 10
0
 20
0
 30
0
  0
LINE
  8
_0-2_SUNPOU
  6
CONTINUOUS
 62
    1
 10
-1123.5353447734949
 20
1941.6705369726139
 11
-1146.448672810991
 21
1941.6705369726139
  0
LINE
  8
_0-2_SUNPOU
  6
CONTINUOUS
 62
    1
 10
-1128.5353427734949
 20
1928.6705469726139
 11
-1146.448672810991
 21
1928.6705469726139
  0
LINE
  8
_0-2_SUNPOU
  6
CONTINUOUS
 62
    1
 10
-1145.948672810991
 20
1938.6705369726139
 11
-1145.948672810991
 21
1931.6705469726139
  0
SOLID
  8
_0-2_SUNPOU
  6
CONTINUOUS
 62
    1
 10
-1146.448672810991
 20
1938.6705369726139
 11
-1145.44867281099
 21
1938.6705369726139
 12
-1145.948672810991
 22
1941.6705369726139
 13
-1145.948672810991
 23
1941.6705369726139
  0
SOLID
  8
_0-2_SUNPOU
  6
CONTINUOUS
 62
    1
 10
-1146.448672810991
 20
1931.6705469726139
 11
-1145.44867281099
 21
1931.6705469726139
 12
-1145.948672810991
 22
1928.6705469726139
 13
-1145.948672810991
 23
1928.6705469726139
  0
TEXT
  8
_0-2_SUNPOU
 62
    7
 10
-1146.948672810991
 20
1933.420541972614
 40
3.5
 41
1
 50
90
  1
13
  0
POINT
  8
_0-4_DEFPOINTS
 62
    7
 10
-1123.0353447734949
 20
1941.6705369726139
  0
POINT
  8
_0-4_DEFPOINTS
 62
    7
 10
-1128.0353427734949
 20
1928.6705469726139
  0
POINT
  8
_0-4_DEFPOINTS
 62
    7
 10
-1145.948672810991
 20
1928.6705469726139
  0
ENDBLK
  0
BLOCK
  2
-001-_D25
 70
   64
 10
0
 20
0
 30
0
  0
LINE
  8
_0-2_SUNPOU
  6
CONTINUOUS
 62
    1
 10
-1128.5353427734949
 20
1928.6705469726139
 11
-1146.448672810991
 21
1928.6705469726139
  0
LINE
  8
_0-2_SUNPOU
  6
CONTINUOUS
 62
    1
 10
-1128.5353427734949
 20
1911.6705369726139
 11
-1146.448672810991
 21
1911.6705369726139
  0
LINE
  8
_0-2_SUNPOU
  6
CONTINUOUS
 62
    1
 10
-1145.948672810991
 20
1925.6705469726139
 11
-1145.948672810991
 21
1914.6705369726139
  0
SOLID
  8
_0-2_SUNPOU
  6
CONTINUOUS
 62
    1
 10
-1146.448672810991
 20
1925.6705469726139
 11
-1145.44867281099
 21
1925.6705469726139
 12
-1145.948672810991
 22
1928.6705469726139
 13
-1145.948672810991
 23
1928.6705469726139
  0
SOLID
  8
_0-2_SUNPOU
  6
CONTINUOUS
 62
    1
 10
-1146.448672810991
 20
1914.6705369726139
 11
-1145.44867281099
 21
1914.6705369726139
 12
-1145.948672810991
 22
1911.6705369726139
 13
-1145.948672810991
 23
1911.6705369726139
  0
TEXT
  8
_0-2_SUNPOU
 62
    7
 10
-1146.948672810991
 20
1918.420541972614
 40
3.5
 41
1
 50
90
  1
17
  0
POINT
  8
_0-4_DEFPOINTS
 62
    7
 10
-1128.0353427734949
 20
1928.6705469726139
  0
POINT
  8
_0-4_DEFPOINTS
 62
    7
 10
-1128.0353427734949
 20
1911.6705369726139
  0
POINT
  8
_0-4_DEFPOINTS
 62
    7
 10
-1145.948672810991
 20
1911.6705369726139
  0
ENDBLK
  0
BLOCK
  2
-002-_D26
 70
   64
 10
0
 20
0
 30
0
  0
LINE
  8
_0-2_SUNPOU
  6
CONTINUOUS
 62
    1
 10
-1127.5353457734941
 20
1911.6705369726139
 11
-1146.448672810991
 21
1911.6705369726139
  0
LINE
  8
_0-2_SUNPOU
  6
CONTINUOUS
 62
    1
 10
-1131.8282347734951
 20
1901.6705369726137
 11
-1146.448672810991
 21
1901.6705369726137
  0
LINE
  8
_0-2_SUNPOU
  6
CONTINUOUS
 62
    1
 10
-1145.948672810991
 20
1908.6705369726139
 11
-1145.948672810991
 21
1904.6705369726137
  0
SOLID
  8
_0-2_SUNPOU
  6
CONTINUOUS
 62
    1
 10
-1146.448672810991
 20
1908.6705369726139
 11
-1145.44867281099
 21
1908.6705369726139
 12
-1145.948672810991
 22
1911.6705369726139
 13
-1145.948672810991
 23
1911.6705369726139
  0
SOLID
  8
_0-2_SUNPOU
  6
CONTINUOUS
 62
    1
 10
-1146.448672810991
 20
1904.6705369726137
 11
-1145.44867281099
 21
1904.6705369726137
 12
-1145.948672810991
 22
1901.6705369726137
 13
-1145.948672810991
 23
1901.6705369726137
  0
TEXT
  8
_0-2_SUNPOU
 62
    7
 10
-1146.948672810991
 20
1904.9205369726139
 40
3.5
 41
1
 50
90
  1
10
  0
POINT
  8
_0-4_DEFPOINTS
 62
    7
 10
-1127.035345773495
 20
1911.6705369726139
  0
POINT
  8
_0-4_DEFPOINTS
 62
    7
 10
-1131.3282347734951
 20
1901.6705369726137
  0
POINT
  8
_0-4_DEFPOINTS
 62
    7
 10
-1145.948672810991
 20
1901.6705369726137
  0
ENDBLK
  0
BLOCK
  2
-003-_D27
 70
   64
 10
0
 20
0
 30
0
  0
LINE
  8
_0-2_SUNPOU
  6
CONTINUOUS
 62
    1
 10
-1132.0353437734941
 20
1901.877646972614
 11
-1132.0353437734941
 21
1885.0412759395981
  0
LINE
  8
_0-2_SUNPOU
  6
CONTINUOUS
 62
    1
 10
-1128.0353427734949
 20
1911.1705369726142
 11
-1128.0353427734949
 21
1885.0412759395981
  0
LINE
  8
_0-2_SUNPOU
  6
CONTINUOUS
 62
    1
 10
-1135.035343773495
 20
1885.5412759395981
 11
-1138.035343773495
 21
1885.5412759395981
  0
LINE
  8
_0-2_SUNPOU
  6
CONTINUOUS
 62
    1
 10
-1125.0353427734949
 20
1885.5412759395981
 11
-1122.0353427734949
 21
1885.5412759395981
  0
LINE
  8
_0-2_SUNPOU
  6
CONTINUOUS
 62
    1
 10
-1132.0353437734941
 20
1885.5412759395981
 11
-1128.0353427734949
 21
1885.5412759395981
  0
SOLID
  8
_0-2_SUNPOU
  6
CONTINUOUS
 62
    1
 10
-1135.035343773495
 20
1886.0412759395981
 11
-1135.035343773495
 21
1885.0412759395981
 12
-1132.0353437734941
 22
1885.5412759395981
 13
-1132.0353437734941
 23
1885.5412759395981
  0
SOLID
  8
_0-2_SUNPOU
  6
CONTINUOUS
 62
    1
 10
-1125.0353427734949
 20
1886.0412759395981
 11
-1125.0353427734949
 21
1885.0412759395981
 12
-1128.0353427734949
 22
1885.5412759395981
 13
-1128.0353427734949
 23
1885.5412759395981
  0
TEXT
  8
_0-2_SUNPOU
 62
    7
 10
-1130.9103432734951
 20
1886.5412759395981
 40
3.5
 41
1
 50
0
  1
4
  0
POINT
  8
_0-4_DEFPOINTS
 62
    7
 10
-1132.0353437734941
 20
1902.377646972614
  0
POINT
  8
_0-4_DEFPOINTS
 62
    7
 10
-1128.0353427734949
 20
1911.6705369726139
  0
POINT
  8
_0-4_DEFPOINTS
 62
    7
 10
-1128.0353427734949
 20
1885.5412759395981
  0
ENDBLK
  0
BLOCK
  2
-004-_D28
 70
   64
 10
0
 20
0
 30
0
  0
LINE
  8
_0-2_SUNPOU
  6
CONTINUOUS
 62
    1
 10
-1008.035331773495
 20
1911.1705369726142
 11
-1008.035331773495
 21
1885.0412759395981
  0
LINE
  8
_0-2_SUNPOU
  6
CONTINUOUS
 62
    1
 10
-1125.0353427734949
 20
1885.5412759395981
 11
-1011.035331773495
 21
1885.5412759395981
  0
SOLID
  8
_0-2_SUNPOU
  6
CONTINUOUS
 62
    1
 10
-1125.0353427734949
 20
1886.0412759395981
 11
-1125.0353427734949
 21
1885.0412759395981
 12
-1128.0353427734949
 22
1885.5412759395981
 13
-1128.0353427734949
 23
1885.5412759395981
  0
SOLID
  8
_0-2_SUNPOU
  6
CONTINUOUS
 62
    1
 10
-1011.035331773495
 20
1886.0412759395981
 11
-1011.035331773495
 21
1885.0412759395981
 12
-1008.035331773495
 22
1885.5412759395981
 13
-1008.035331773495
 23
1885.5412759395981
  0
TEXT
  8
_0-2_SUNPOU
 62
    7
 10
-1070.6603372734951
 20
1886.5412759395981
 40
3.5
 41
1
 50
0
  1
120
  0
POINT
  8
_0-4_DEFPOINTS
 62
    7
 10
-1128.0353427734949
 20
1885.5412759395981
  0
POINT
  8
_0-4_DEFPOINTS
 62
    7
 10
-1008.035331773495
 20
1911.6705369726139
  0
POINT
  8
_0-4_DEFPOINTS
 62
    7
 10
-1008.035331773495
 20
1885.5412759395981
  0
ENDBLK
  0
BLOCK
  2
-005-_D29
 70
   64
 10
0
 20
0
 30
0
  0
LINE
  8
_0-2_SUNPOU
  6
CONTINUOUS
 62
    1
 10
-1004.035351773495
 20
1901.877646972614
 11
-1004.035351773495
 21
1885.0412759395981
  0
LINE
  8
_0-2_SUNPOU
  6
CONTINUOUS
 62
    1
 10
-1011.035331773495
 20
1885.5412759395981
 11
-1014.035331773495
 21
1885.5412759395981
  0
LINE
  8
_0-2_SUNPOU
  6
CONTINUOUS
 62
    1
 10
-1001.035351773495
 20
1885.5412759395981
 11
-998.03535177349499
 21
1885.5412759395981
  0
LINE
  8
_0-2_SUNPOU
  6
CONTINUOUS
 62
    1
 10
-1008.035331773495
 20
1885.5412759395981
 11
-1004.035351773495
 21
1885.5412759395981
  0
SOLID
  8
_0-2_SUNPOU
  6
CONTINUOUS
 62
    1
 10
-1011.035331773495
 20
1886.0412759395981
 11
-1011.035331773495
 21
1885.0412759395981
 12
-1008.035331773495
 22
1885.5412759395981
 13
-1008.035331773495
 23
1885.5412759395981
  0
SOLID
  8
_0-2_SUNPOU
  6
CONTINUOUS
 62
    1
 10
-1001.035351773495
 20
1886.0412759395981
 11
-1001.035351773495
 21
1885.0412759395981
 12
-1004.035351773495
 22
1885.5412759395981
 13
-1004.035351773495
 23
1885.5412759395981
  0
TEXT
  8
_0-2_SUNPOU
 62
    7
 10
-1006.910341773495
 20
1886.5412759395981
 40
3.5
 41
1
 50
0
  1
4
  0
POINT
  8
_0-4_DEFPOINTS
 62
    7
 10
-1008.035331773495
 20
1885.5412759395981
  0
POINT
  8
_0-4_DEFPOINTS
 62
    7
 10
-1004.035351773495
 20
1902.377646972614
  0
POINT
  8
_0-4_DEFPOINTS
 62
    7
 10
-1004.035351773495
 20
1885.5412759395981
  0
ENDBLK
  0
BLOCK
  2
-006-_D30
 70
   64
 10
0
 20
0
 30
0
  0
LINE
  8
_0-2_SUNPOU
  6
CONTINUOUS
 62
    1
 10
-1013.0353517734941
 20
1840.0083769726139
 11
-1013.0353517734941
 21
1851.1297481794622
  0
LINE
  8
_0-2_SUNPOU
  6
CONTINUOUS
 62
    1
 10
-1001.035361773495
 20
1836.0083669726141
 11
-1001.035361773495
 21
1851.1297481794622
  0
LINE
  8
_0-2_SUNPOU
  6
CONTINUOUS
 62
    1
 10
-1010.035351773495
 20
1850.6297481794618
 11
-1004.0353617734941
 21
1850.6297481794618
  0
SOLID
  8
_0-2_SUNPOU
  6
CONTINUOUS
 62
    1
 10
-1010.035351773495
 20
1851.1297481794622
 11
-1010.035351773495
 21
1850.1297481794631
 12
-1013.0353517734941
 22
1850.6297481794618
 13
-1013.0353517734941
 23
1850.6297481794618
  0
SOLID
  8
_0-2_SUNPOU
  6
CONTINUOUS
 62
    1
 10
-1004.0353617734941
 20
1851.1297481794622
 11
-1004.0353617734941
 21
1850.1297481794631
 12
-1001.035361773495
 22
1850.6297481794618
 13
-1001.035361773495
 23
1850.6297481794618
  0
TEXT
  8
_0-2_SUNPOU
 62
    7
 10
-1008.785356773495
 20
1851.629748179462
 40
3.5
 41
1
 50
0
  1
12
  0
POINT
  8
_0-4_DEFPOINTS
 62
    7
 10
-1013.0353517734941
 20
1839.5083769726141
  0
POINT
  8
_0-4_DEFPOINTS
 62
    7
 10
-1001.035361773495
 20
1835.5083669726141
  0
POINT
  8
_0-4_DEFPOINTS
 62
    7
 10
-1001.035361773495
 20
1850.6297481794618
  0
ENDBLK
  0
BLOCK
  2
-007-_D31
 70
   64
 10
0
 20
0
 30
0
  0
LINE
  8
_0-2_SUNPOU
  6
CONTINUOUS
 62
    1
 10
-1132.0353437734941
 20
1732.0083789726141
 11
-1132.0353437734941
 21
1719.5966329883449
  0
LINE
  8
_0-2_SUNPOU
  6
CONTINUOUS
 62
    1
 10
-1123.0353447734949
 20
1734.0083979726137
 11
-1123.0353447734949
 21
1719.5966329883449
  0
LINE
  8
_0-2_SUNPOU
  6
CONTINUOUS
 62
    1
 10
-1129.035343773495
 20
1720.0966329883449
 11
-1126.0353447734949
 21
1720.0966329883449
  0
SOLID
  8
_0-2_SUNPOU
  6
CONTINUOUS
 62
    1
 10
-1129.035343773495
 20
1720.596632988344
 11
-1129.035343773495
 21
1719.5966329883449
 12
-1132.0353437734941
 22
1720.0966329883449
 13
-1132.0353437734941
 23
1720.0966329883449
  0
SOLID
  8
_0-2_SUNPOU
  6
CONTINUOUS
 62
    1
 10
-1126.0353447734949
 20
1720.596632988344
 11
-1126.0353447734949
 21
1719.5966329883449
 12
-1123.0353447734949
 22
1720.0966329883449
 13
-1123.0353447734949
 23
1720.0966329883449
  0
TEXT
  8
_0-2_SUNPOU
 62
    7
 10
-1128.410344273494
 20
1721.096632988344
 40
3.5
 41
1
 50
0
  1
9
  0
POINT
  8
_0-4_DEFPOINTS
 62
    7
 10
-1132.0353437734941
 20
1732.5083789726141
  0
POINT
  8
_0-4_DEFPOINTS
 62
    7
 10
-1123.0353447734949
 20
1734.5083979726141
  0
POINT
  8
_0-4_DEFPOINTS
 62
    7
 10
-1123.0353447734949
 20
1720.0966329883449
  0
ENDBLK
  0
BLOCK
  2
-008-_D32
 70
   64
 10
0
 20
0
 30
0
  0
LINE
  8
_0-2_SUNPOU
  6
CONTINUOUS
 62
    1
 10
-1013.0353517734941
 20
1734.0083789726141
 11
-1013.0353517734941
 21
1719.5966329883449
  0
LINE
  8
_0-2_SUNPOU
  6
CONTINUOUS
 62
    1
 10
-1120.0353447734949
 20
1720.0966329883449
 11
-1016.035351773495
 21
1720.0966329883449
  0
SOLID
  8
_0-2_SUNPOU
  6
CONTINUOUS
 62
    1
 10
-1120.0353447734949
 20
1720.596632988344
 11
-1120.0353447734949
 21
1719.5966329883449
 12
-1123.0353447734949
 22
1720.0966329883449
 13
-1123.0353447734949
 23
1720.0966329883449
  0
SOLID
  8
_0-2_SUNPOU
  6
CONTINUOUS
 62
    1
 10
-1016.035351773495
 20
1720.596632988344
 11
-1016.035351773495
 21
1719.5966329883449
 12
-1013.0353517734941
 22
1720.0966329883449
 13
-1013.0353517734941
 23
1720.0966329883449
  0
TEXT
  8
_0-2_SUNPOU
 62
    7
 10
-1070.660348273494
 20
1721.096632988344
 40
3.5
 41
1
 50
0
  1
110
  0
POINT
  8
_0-4_DEFPOINTS
 62
    7
 10
-1123.0353447734949
 20
1720.0966329883449
  0
POINT
  8
_0-4_DEFPOINTS
 62
    7
 10
-1013.0353517734941
 20
1734.5083789726141
  0
POINT
  8
_0-4_DEFPOINTS
 62
    7
 10
-1013.0353517734941
 20
1720.0966329883449
  0
ENDBLK
  0
BLOCK
  2
-009-_D33
 70
   64
 10
0
 20
0
 30
0
  0
LINE
  8
_0-2_SUNPOU
  6
CONTINUOUS
 62
    1
 10
-1004.035351773495
 20
1732.0083789726141
 11
-1004.035351773495
 21
1719.5966329883449
  0
LINE
  8
_0-2_SUNPOU
  6
CONTINUOUS
 62
    1
 10
-1010.035351773495
 20
1720.0966329883449
 11
-1007.035351773495
 21
1720.0966329883449
  0
SOLID
  8
_0-2_SUNPOU
  6
CONTINUOUS
 62
    1
 10
-1010.035351773495
 20
1720.596632988344
 11
-1010.035351773495
 21
1719.5966329883449
 12
-1013.0353517734941
 22
1720.0966329883449
 13
-1013.0353517734941
 23
1720.0966329883449
  0
SOLID
  8
_0-2_SUNPOU
  6
CONTINUOUS
 62
    1
 10
-1007.035351773495
 20
1720.596632988344
 11
-1007.035351773495
 21
1719.5966329883449
 12
-1004.035351773495
 22
1720.0966329883449
 13
-1004.035351773495
 23
1720.0966329883449
  0
TEXT
  8
_0-2_SUNPOU
 62
    7
 10
-1009.4103517734941
 20
1721.096632988344
 40
3.5
 41
1
 50
0
  1
9
  0
POINT
  8
_0-4_DEFPOINTS
 62
    7
 10
-1013.0353517734941
 20
1720.0966329883449
  0
POINT
  8
_0-4_DEFPOINTS
 62
    7
 10
-1004.035351773495
 20
1732.5083789726141
  0
POINT
  8
_0-4_DEFPOINTS
 62
    7
 10
-1004.035351773495
 20
1720.0966329883449
  0
ENDBLK
  0
BLOCK
  2
-010-_D34
 70
   64
 10
0
 20
0
 30
0
  0
LINE
  8
_0-2_SUNPOU
  6
CONTINUOUS
 62
    1
 10
-1132.0353437734941
 20
1719.5966329883449
 11
-1132.0353437734941
 21
1709.989450423529
  0
LINE
  8
_0-2_SUNPOU
  6
CONTINUOUS
 62
    1
 10
-1004.035351773495
 20
1719.096632988344
 11
-1004.035351773495
 21
1709.989450423529
  0
LINE
  8
_0-2_SUNPOU
  6
CONTINUOUS
 62
    1
 10
-1129.035343773495
 20
1710.4894504235299
 11
-1007.035351773495
 21
1710.4894504235299
  0
SOLID
  8
_0-2_SUNPOU
  6
CONTINUOUS
 62
    1
 10
-1129.035343773495
 20
1710.9894504235313
 11
-1129.035343773495
 21
1709.989450423529
 12
-1132.0353437734941
 22
1710.4894504235299
 13
-1132.0353437734941
 23
1710.4894504235299
  0
SOLID
  8
_0-2_SUNPOU
  6
CONTINUOUS
 62
    1
 10
-1007.035351773495
 20
1710.9894504235313
 11
-1007.035351773495
 21
1709.989450423529
 12
-1004.035351773495
 22
1710.4894504235299
 13
-1004.035351773495
 23
1710.4894504235299
  0
TEXT
  8
_0-2_SUNPOU
 62
    7
 10
-1070.660347773495
 20
1711.4894504235297
 40
3.5
 41
1
 50
0
  1
128
  0
POINT
  8
_0-4_DEFPOINTS
 62
    7
 10
-1132.0353437734941
 20
1720.0966329883449
  0
POINT
  8
_0-4_DEFPOINTS
 62
    7
 10
-1004.035351773495
 20
1719.5966329883449
  0
POINT
  8
_0-4_DEFPOINTS
 62
    7
 10
-1004.035351773495
 20
1710.4894504235299
  0
ENDBLK
  0
BLOCK
  2
-011-_D35
 70
   64
 10
0
 20
0
 30
0
  0
LINE
  8
_0-2_SUNPOU
  6
CONTINUOUS
 62
    1
 10
-999.03535177349499
 20
1738.008373972614
 11
-999.03535177349499
 21
1709.989450423529
  0
LINE
  8
_0-2_SUNPOU
  6
CONTINUOUS
 62
    1
 10
-1007.035351773495
 20
1710.4894504235299
 11
-1010.035351773495
 21
1710.4894504235299
  0
LINE
  8
_0-2_SUNPOU
  6
CONTINUOUS
 62
    1
 10
-996.03535177349534
 20
1710.4894504235299
 11
-993.03535177349522
 21
1710.4894504235299
  0
LINE
  8
_0-2_SUNPOU
  6
CONTINUOUS
 62
    1
 10
-1004.035351773495
 20
1710.4894504235299
 11
-999.03535177349499
 21
1710.4894504235299
  0
SOLID
  8
_0-2_SUNPOU
  6
CONTINUOUS
 62
    1
 10
-1007.035351773495
 20
1710.9894504235313
 11
-1007.035351773495
 21
1709.989450423529
 12
-1004.035351773495
 22
1710.4894504235299
 13
-1004.035351773495
 23
1710.4894504235299
  0
SOLID
  8
_0-2_SUNPOU
  6
CONTINUOUS
 62
    1
 10
-996.03535177349534
 20
1710.9894504235313
 11
-996.03535177349534
 21
1709.989450423529
 12
-999.03535177349499
 22
1710.4894504235299
 13
-999.03535177349499
 23
1710.4894504235299
  0
TEXT
  8
_0-2_SUNPOU
 62
    7
 10
-1002.410351773495
 20
1711.4894504235297
 40
3.5
 41
1
 50
0
  1
5
  0
POINT
  8
_0-4_DEFPOINTS
 62
    7
 10
-1004.035351773495
 20
1710.4894504235299
  0
POINT
  8
_0-4_DEFPOINTS
 62
    7
 10
-999.03535177349499
 20
1738.5083739726138
  0
POINT
  8
_0-4_DEFPOINTS
 62
    7
 10
-999.03535177349499
 20
1710.4894504235299
  0
ENDBLK
  0
BLOCK
  2
-012-_D36
 70
   64
 10
0
 20
0
 30
0
  0
LINE
  8
_0-2_SUNPOU
  6
CONTINUOUS
 62
    1
 10
-1003.535351773495
 20
1732.5083789726141
 11
-985.72862670007635
 21
1732.5083789726141
  0
LINE
  8
_0-2_SUNPOU
  6
CONTINUOUS
 62
    1
 10
-1003.535351773495
 20
1734.5083789726141
 11
-985.72862670007635
 21
1734.5083789726141
  0
LINE
  8
_0-2_SUNPOU
  6
CONTINUOUS
 62
    1
 10
-986.22862670007635
 20
1729.5083789726141
 11
-986.22862670007635
 21
1726.5083789726141
  0
LINE
  8
_0-2_SUNPOU
  6
CONTINUOUS
 62
    1
 10
-986.22862670007635
 20
1737.5083789726141
 11
-986.22862670007635
 21
1744.3205617137301
  0
LINE
  8
_0-2_SUNPOU
  6
CONTINUOUS
 62
    1
 10
-986.22862670007635
 20
1732.5083789726141
 11
-986.22862670007635
 21
1734.5083789726141
  0
SOLID
  8
_0-2_SUNPOU
  6
CONTINUOUS
 62
    1
 10
-986.72862670007635
 20
1729.5083789726141
 11
-985.72862670007635
 21
1729.5083789726141
 12
-986.22862670007635
 22
1732.5083789726141
 13
-986.22862670007635
 23
1732.5083789726141
  0
SOLID
  8
_0-2_SUNPOU
  6
CONTINUOUS
 62
    1
 10
-986.72862670007635
 20
1737.5083789726141
 11
-985.72862670007635
 21
1737.5083789726141
 12
-986.22862670007635
 22
1734.5083789726141
 13
-986.22862670007635
 23
1734.5083789726141
  0
TEXT
  8
_0-2_SUNPOU
 62
    7
 10
-987.22862670007657
 20
1741.5394703431723
 40
3.5
 41
1
 50
90
  1
2
  0
POINT
  8
_0-4_DEFPOINTS
 62
    7
 10
-1004.035351773495
 20
1732.5083789726141
  0
POINT
  8
_0-4_DEFPOINTS
 62
    7
 10
-1004.035351773495
 20
1734.5083789726141
  0
POINT
  8
_0-4_DEFPOINTS
 62
    7
 10
-986.22862670007635
 20
1734.5083789726141
  0
ENDBLK
  0
BLOCK
  2
-013-_D37
 70
   64
 10
0
 20
0
 30
0
  0
LINE
  8
_0-2_SUNPOU
  6
CONTINUOUS
 62
    1
 10
-998.53535177349511
 20
1798.2033432140829
 11
-986.22862670007635
 21
1798.2033432140829
  0
LINE
  8
_0-2_SUNPOU
  6
CONTINUOUS
 62
    1
 10
-998.53535177349511
 20
1791.8833432140841
 11
-986.22862670007635
 21
1791.8833432140841
  0
LINE
  8
_0-2_SUNPOU
  6
CONTINUOUS
 62
    1
 10
-986.72862670007635
 20
1801.2033432140829
 11
-986.72862670007635
 21
1804.2033432140829
  0
LINE
  8
_0-2_SUNPOU
  6
CONTINUOUS
 62
    1
 10
-986.72862670007635
 20
1788.8833432140841
 11
-986.72862670007635
 21
1775.28435844251
  0
LINE
  8
_0-2_SUNPOU
  6
CONTINUOUS
 62
    1
 10
-986.72862670007635
 20
1798.2033432140829
 11
-986.72862670007635
 21
1791.8833432140841
  0
SOLID
  8
_0-2_SUNPOU
  6
CONTINUOUS
 62
    1
 10
-987.22862670007601
 20
1801.2033432140829
 11
-986.22862670007635
 21
1801.2033432140829
 12
-986.72862670007635
 22
1798.2033432140829
 13
-986.72862670007635
 23
1798.2033432140829
  0
SOLID
  8
_0-2_SUNPOU
  6
CONTINUOUS
 62
    1
 10
-987.22862670007657
 20
1788.8833432140841
 11
-986.22862670007635
 21
1788.8833432140841
 12
-986.72862670007635
 22
1791.8833432140841
 13
-986.72862670007635
 23
1791.8833432140841
  0
TEXT
  8
_0-2_SUNPOU
 62
    7
 10
-987.72862670007657
 20
1777.083850828297
 40
3.5
 41
1
 50
90
  1
6.32
  0
POINT
  8
_0-4_DEFPOINTS
 62
    7
 10
-999.03535177349499
 20
1798.2033432140829
  0
POINT
  8
_0-4_DEFPOINTS
 62
    7
 10
-999.03535177349499
 20
1791.8833432140841
  0
POINT
  8
_0-4_DEFPOINTS
 62
    7
 10
-986.72862670007635
 20
1791.8833432140841
  0
ENDBLK
  0
BLOCK
  2
-014-_D38
 70
   64
 10
0
 20
0
 30
0
  0
LINE
  8
_0-2_SUNPOU
  6
CONTINUOUS
 62
    1
 10
-927.46779177349458
 20
1737.0083709726141
 11
-927.46779177349458
 21
1719.5966329883449
  0
LINE
  8
_0-2_SUNPOU
  6
CONTINUOUS
 62
    1
 10
-924.46778177349506
 20
1732.0083789726141
 11
-924.46778177349506
 21
1719.5966329883449
  0
LINE
  8
_0-2_SUNPOU
  6
CONTINUOUS
 62
    1
 10
-930.46779177349481
 20
1720.0966329883449
 11
-933.46779177349458
 21
1720.0966329883449
  0
LINE
  8
_0-2_SUNPOU
  6
CONTINUOUS
 62
    1
 10
-921.46778177349506
 20
1720.0966329883449
 11
-918.46778177349506
 21
1720.0966329883449
  0
TEXT
  8
_0-2_SUNPOU
 62
    7
 10
-932.4606785786757
 20
1720.556076181866
 40
3.5
 41
1
 50
0
  1
3
  0
LINE
  8
_0-2_SUNPOU
  6
CONTINUOUS
 62
    1
 10
-927.46779177349458
 20
1720.0966329883449
 11
-924.46778177349506
 21
1720.0966329883449
  0
SOLID
  8
_0-2_SUNPOU
  6
CONTINUOUS
 62
    1
 10
-930.46779177349481
 20
1720.596632988344
 11
-930.46779177349481
 21
1719.5966329883449
 12
-927.46779177349458
 22
1720.0966329883449
 13
-927.46779177349458
 23
1720.0966329883449
  0
SOLID
  8
_0-2_SUNPOU
  6
CONTINUOUS
 62
    1
 10
-921.46778177349506
 20
1720.596632988344
 11
-921.46778177349506
 21
1719.5966329883449
 12
-924.46778177349506
 22
1720.0966329883449
 13
-924.46778177349506
 23
1720.0966329883449
  0
POINT
  8
_0-4_DEFPOINTS
 62
    7
 10
-927.46779177349458
 20
1737.5083709726141
  0
POINT
  8
_0-4_DEFPOINTS
 62
    7
 10
-924.46778177349506
 20
1732.5083789726141
  0
POINT
  8
_0-4_DEFPOINTS
 62
    7
 10
-924.46778177349506
 20
1720.0966329883449
  0
ENDBLK
  0
BLOCK
  2
-015-_D39
 70
   64
 10
0
 20
0
 30
0
  0
LINE
  8
_0-2_SUNPOU
  6
CONTINUOUS
 62
    1
 10
-924.46778177349506
 20
1720.0966329883449
 11
-924.46778177349506
 21
1720.596632988344
  0
LINE
  8
_0-2_SUNPOU
  6
CONTINUOUS
 62
    1
 10
-884.46777177349509
 20
1732.0083789726141
 11
-884.46777177349509
 21
1719.5966329883449
  0
LINE
  8
_0-2_SUNPOU
  6
CONTINUOUS
 62
    1
 10
-921.46778177349483
 20
1720.0966329883449
 11
-887.46777177349509
 21
1720.0966329883449
  0
SOLID
  8
_0-2_SUNPOU
  6
CONTINUOUS
 62
    1
 10
-921.46778177349483
 20
1720.596632988344
 11
-921.46778177349483
 21
1719.5966329883449
 12
-924.46778177349506
 22
1720.0966329883449
 13
-924.46778177349506
 23
1720.0966329883449
  0
SOLID
  8
_0-2_SUNPOU
  6
CONTINUOUS
 62
    1
 10
-887.46777177349509
 20
1720.596632988344
 11
-887.46777177349509
 21
1719.5966329883449
 12
-884.46777177349509
 22
1720.0966329883449
 13
-884.46777177349509
 23
1720.0966329883449
  0
TEXT
  8
_0-2_SUNPOU
 62
    7
 10
-906.21777677349496
 20
1721.096632988344
 40
3.5
 41
1
 50
0
  1
40
  0
POINT
  8
_0-4_DEFPOINTS
 62
    7
 10
-924.46778177349506
 20
1719.5966329883449
  0
POINT
  8
_0-4_DEFPOINTS
 62
    7
 10
-884.46777177349509
 20
1732.5083789726141
  0
POINT
  8
_0-4_DEFPOINTS
 62
    7
 10
-884.46777177349509
 20
1720.0966329883449
  0
ENDBLK
  0
BLOCK
  2
-016-_D40
 70
   64
 10
0
 20
0
 30
0
  0
LINE
  8
_0-2_SUNPOU
  6
CONTINUOUS
 62
    1
 10
-883.96777177349497
 20
1839.5083769726141
 11
-866.69841981846366
 21
1839.5083769726141
  0
LINE
  8
_0-2_SUNPOU
  6
CONTINUOUS
 62
    1
 10
-883.96777177349497
 20
1732.5083789726141
 11
-866.69841981846389
 21
1732.5083789726141
  0
LINE
  8
_0-2_SUNPOU
  6
CONTINUOUS
 62
    1
 10
-867.19841981846378
 20
1836.5083769726141
 11
-867.19841981846378
 21
1735.5083789726141
  0
SOLID
  8
_0-2_SUNPOU
  6
CONTINUOUS
 62
    1
 10
-867.69841981846366
 20
1836.5083769726141
 11
-866.69841981846366
 21
1836.5083769726141
 12
-867.19841981846378
 22
1839.5083769726141
 13
-867.19841981846378
 23
1839.5083769726141
  0
SOLID
  8
_0-2_SUNPOU
  6
CONTINUOUS
 62
    1
 10
-867.69841981846389
 20
1735.5083789726141
 11
-866.69841981846389
 21
1735.5083789726141
 12
-867.19841981846378
 22
1732.5083789726141
 13
-867.19841981846378
 23
1732.5083789726141
  0
TEXT
  8
_0-2_SUNPOU
 62
    7
 10
-868.19841981846423
 20
1783.383377972614
 40
3.5
 41
1
 50
90
  1
107
  0
POINT
  8
_0-4_DEFPOINTS
 62
    7
 10
-884.46777177349509
 20
1839.5083769726141
  0
POINT
  8
_0-4_DEFPOINTS
 62
    7
 10
-884.46777177349509
 20
1732.5083789726141
  0
POINT
  8
_0-4_DEFPOINTS
 62
    7
 10
-867.19841981846378
 20
1732.5083789726141
  0
ENDBLK
  0
BLOCK
  2
-017-_D41
 70
   64
 10
0
 20
0
 30
0
  0
LINE
  8
_0-2_SUNPOU
  6
CONTINUOUS
 62
    1
 10
-1004.2424517734951
 20
1901.6705369726137
 11
-986.7055971870177
 21
1901.6705369726137
  0
LINE
  8
_0-2_SUNPOU
  6
CONTINUOUS
 62
    1
 10
-1005.535331773495
 20
1911.6705369726139
 11
-986.7055971870177
 21
1911.6705369726139
  0
LINE
  8
_0-2_SUNPOU
  6
CONTINUOUS
 62
    1
 10
-987.2055971870177
 20
1904.6705369726137
 11
-987.2055971870177
 21
1908.6705369726139
  0
SOLID
  8
_0-2_SUNPOU
  6
CONTINUOUS
 62
    1
 10
-987.7055971870177
 20
1904.6705369726137
 11
-986.7055971870177
 21
1904.6705369726137
 12
-987.2055971870177
 22
1901.6705369726137
 13
-987.2055971870177
 23
1901.6705369726137
  0
SOLID
  8
_0-2_SUNPOU
  6
CONTINUOUS
 62
    1
 10
-987.7055971870177
 20
1908.6705369726139
 11
-986.7055971870177
 21
1908.6705369726139
 12
-987.2055971870177
 22
1911.6705369726139
 13
-987.2055971870177
 23
1911.6705369726139
  0
TEXT
  8
_0-2_SUNPOU
 62
    7
 10
-988.20559718701816
 20
1904.9205369726139
 40
3.5
 41
1
 50
90
  1
10
  0
POINT
  8
_0-4_DEFPOINTS
 62
    7
 10
-1004.7424517734948
 20
1901.6705369726137
  0
POINT
  8
_0-4_DEFPOINTS
 62
    7
 10
-1006.035331773495
 20
1911.6705369726139
  0
POINT
  8
_0-4_DEFPOINTS
 62
    7
 10
-987.2055971870177
 20
1911.6705369726139
  0
ENDBLK
  0
BLOCK
  2
-018-_D42
 70
   64
 10
0
 20
0
 30
0
  0
LINE
  8
_0-2_SUNPOU
  6
CONTINUOUS
 62
    1
 10
-1003.535351773495
 20
1909.6705369726142
 11
-993.33375153558359
 21
1909.6705369726142
  0
LINE
  8
_0-2_SUNPOU
  6
CONTINUOUS
 62
    1
 10
-1003.535351773495
 20
1913.6705469726139
 11
-993.33375153558359
 21
1913.6705469726139
  0
LINE
  8
_0-2_SUNPOU
  6
CONTINUOUS
 62
    1
 10
-993.83375153558359
 20
1906.6705369726142
 11
-993.83375153558359
 21
1903.6705369726142
  0
LINE
  8
_0-2_SUNPOU
  6
CONTINUOUS
 62
    1
 10
-993.83375153558359
 20
1916.6705469726139
 11
-993.83375153558359
 21
1919.6705469726139
  0
TEXT
  8
_0-2_SUNPOU
 62
    7
 10
-993.93963396030915
 20
1917.7759594718302
 40
3.5
 41
1
 50
90
  1
4
  0
LINE
  8
_0-2_SUNPOU
  6
CONTINUOUS
 62
    1
 10
-993.83375153558359
 20
1909.6705369726142
 11
-993.83375153558359
 21
1913.6705469726139
  0
SOLID
  8
_0-2_SUNPOU
  6
CONTINUOUS
 62
    1
 10
-994.33375153558381
 20
1906.6705369726142
 11
-993.33375153558359
 21
1906.6705369726142
 12
-993.83375153558359
 22
1909.6705369726142
 13
-993.83375153558359
 23
1909.6705369726142
  0
SOLID
  8
_0-2_SUNPOU
  6
CONTINUOUS
 62
    1
 10
-994.33375153558381
 20
1916.6705469726139
 11
-993.33375153558359
 21
1916.6705469726139
 12
-993.83375153558359
 22
1913.6705469726139
 13
-993.83375153558359
 23
1913.6705469726139
  0
POINT
  8
_0-4_DEFPOINTS
 62
    7
 10
-1004.035351773495
 20
1909.6705369726142
  0
POINT
  8
_0-4_DEFPOINTS
 62
    7
 10
-1004.035351773495
 20
1913.6705469726139
  0
POINT
  8
_0-4_DEFPOINTS
 62
    7
 10
-993.83375153558359
 20
1913.6705469726139
  0
ENDBLK
  0
BLOCK
  2
-019-_D43
 70
   64
 10
0
 20
0
 30
0
  0
LINE
  8
_0-2_SUNPOU
  6
CONTINUOUS
 62
    1
 10
-883.96777177349497
 20
1839.5083769726141
 11
-866.78308542648847
 21
1839.5083769726141
  0
LINE
  8
_0-2_SUNPOU
  6
CONTINUOUS
 62
    1
 10
-897.9677717734952
 20
1842.5083869726141
 11
-866.78308542648847
 21
1842.5083869726141
  0
LINE
  8
_0-2_SUNPOU
  6
CONTINUOUS
 62
    1
 10
-867.28308542648847
 20
1836.5083769726141
 11
-867.28308542648847
 21
1833.5083769726141
  0
LINE
  8
_0-2_SUNPOU
  6
CONTINUOUS
 62
    1
 10
-867.28308542648847
 20
1845.5083869726141
 11
-867.28308542648847
 21
1852.3205697137309
  0
LINE
  8
_0-2_SUNPOU
  6
CONTINUOUS
 62
    1
 10
-867.28308542648847
 20
1839.5083769726141
 11
-867.28308542648847
 21
1842.5083869726141
  0
SOLID
  8
_0-2_SUNPOU
  6
CONTINUOUS
 62
    1
 10
-867.78308542648824
 20
1836.5083769726141
 11
-866.78308542648847
 21
1836.5083769726141
 12
-867.28308542648847
 22
1839.5083769726141
 13
-867.28308542648847
 23
1839.5083769726141
  0
SOLID
  8
_0-2_SUNPOU
  6
CONTINUOUS
 62
    1
 10
-867.78308542648824
 20
1845.5083869726141
 11
-866.78308542648847
 21
1845.5083869726141
 12
-867.28308542648847
 22
1842.5083869726141
 13
-867.28308542648847
 23
1842.5083869726141
  0
TEXT
  8
_0-2_SUNPOU
 62
    7
 10
-868.28308542648892
 20
1849.5394783431709
 40
3.5
 41
1
 50
90
  1
3
  0
POINT
  8
_0-4_DEFPOINTS
 62
    7
 10
-884.46777177349509
 20
1839.5083769726141
  0
POINT
  8
_0-4_DEFPOINTS
 62
    7
 10
-898.46777177349509
 20
1842.5083869726141
  0
POINT
  8
_0-4_DEFPOINTS
 62
    7
 10
-867.28308542648847
 20
1842.5083869726141
  0
ENDBLK
  0
ENDSEC
  0
SECTION
  2
ENTITIES
  0
TEXT
  8
_0-1_ZISSEN1
 62
    7
 10
661.14156937091821
 20
567.59423331284631
 40
5
 41
1
 50
0
  1
D-2620　　No.SS0001f27
  0
LINE
  8
_0-1_ZISSEN1
  6
CONTINUOUS
 62
    7
 10
594.59976401189658
 20
576.57181229343018
 11
608.59976401189556
 21
576.57181229343018
  0
LINE
  8
_0-1_ZISSEN1
  6
CONTINUOUS
 62
    7
 10
594.59976401189658
 20
588.77180229343048
 11
608.59976401189556
 21
588.77180229343048
  0
LINE
  8
_0-1_ZISSEN1
  6
CONTINUOUS
 62
    7
 10
606.59975401189558
 20
465.90967229343039
 11
594.59976401189658
 21
465.90967229343039
  0
LINE
  8
_0-1_ZISSEN1
  6
CONTINUOUS
 62
    7
 10
606.59975401189558
 20
470.49611229343043
 11
594.59976401189658
 21
470.49611229343043
  0
LINE
  8
_0-1_ZISSEN1
  6
CONTINUOUS
 62
    7
 10
606.59975401189558
 20
473.05063229343034
 11
594.59976401189658
 21
473.05063229343034
  0
LINE
  8
_0-1_ZISSEN1
  6
CONTINUOUS
 62
    7
 10
606.59975401189558
 20
490.90965229343038
 11
594.59976401189658
 21
490.90965229343038
  0
LINE
  8
_0-1_ZISSEN1
  6
CONTINUOUS
 62
    7
 10
608.59976401189556
 20
457.40966229343047
 11
594.59976401189658
 21
457.40966229343047
  0
LINE
  8
_0-1_ZISSEN1
  6
CONTINUOUS
 62
    7
 10
608.59976401189556
 20
393.90965929343025
 11
594.59976401189658
 21
393.90965929343025
  0
LINE
  8
_0-1_ZISSEN1
  6
CONTINUOUS
 62
    7
 10
476.30688101189548
 20
557.07182229343016
 11
602.89266401189548
 21
557.07182229343016
  0
LINE
  8
_0-1_ZISSEN1
  6
CONTINUOUS
 62
    7
 10
602.89266401189548
 20
595.07182229343027
 11
594.59976401189658
 21
595.07182229343027
  0
LINE
  8
_0-3_CL1
  6
CENTERX2
 62
    7
 10
595.59976401189556
 20
567.07182229343039
 11
601.59978401189551
 21
567.07182229343039
  0
LINE
  8
_0-1_ZISSEN1
  6
CONTINUOUS
 62
    7
 10
475.59977201189645
 20
389.90966429343047
 11
603.59976401189556
 21
389.90966429343047
  0
LINE
  8
_0-1_ZISSEN1
  6
CONTINUOUS
 62
    7
 10
475.59977201189645
 20
387.90966429343041
 11
603.59976401189556
 21
387.90966429343041
  0
LINE
  8
_0-1_ZISSEN1
  6
CONTINUOUS
 62
    7
 10
487.09976401189556
 20
391.11677529343035
 11
487.09976401189556
 21
494.90966229343047
  0
LINE
  8
_0-1_ZISSEN1
  6
CONTINUOUS
 62
    7
 10
484.59977101189565
 20
494.90966229343047
 11
484.59977101189565
 21
389.90968329343025
  0
LINE
  8
_0-1_ZISSEN1
  6
CONTINUOUS
 62
    7
 10
486.59976401189556
 20
494.90966229343047
 11
486.59976401189556
 21
389.90968329343025
  0
LINE
  8
_0-1_ZISSEN1
  6
CONTINUOUS
 62
    7
 10
594.59976401189658
 20
494.90966229343047
 11
594.59976401189658
 21
389.90967029343045
  0
LINE
  8
_0-1_ZISSEN1
  6
CONTINUOUS
 62
    7
 10
487.80687401189562
 20
390.40966629343035
 11
594.59976401189658
 21
390.40966629343035
  0
LINE
  8
_0-3_CL1
  6
CENTERX2
 62
    7
 10
479.59977301189559
 20
392.90964329343035
 11
479.59977301189559
 21
384.9096662934304
  0
LINE
  8
_0-1_ZISSEN1
  6
CONTINUOUS
 62
    7
 10
476.30688101189548
 20
389.90968329343025
 11
476.30688101189548
 21
387.90966429343041
  0
LINE
  8
_0-1_ZISSEN1
  6
CONTINUOUS
 62
    7
 10
475.59977201189645
 20
389.90967029343045
 11
475.59977201189645
 21
387.90966429343041
  0
LINE
  8
_0-1_ZISSEN1
  6
CONTINUOUS
 62
    7
 10
487.80687401189562
 20
390.40966629343035
 11
487.09976401189556
 21
391.11677529343035
  0
CIRCLE
  8
_0-1_ZISSEN1
  6
CONTINUOUS
 62
    7
 10
504.59976401189761
 20
393.90965929343025
 40
3
  0
CIRCLE
  8
_0-1_ZISSEN1
  6
CONTINUOUS
 62
    7
 10
574.59976401189556
 20
393.90965929343025
 40
3
  0
CIRCLE
  8
_0-1_ZISSEN1
  6
CONTINUOUS
 62
    7
 10
578.59976401189647
 20
423.40966329343036
 40
3
  0
CIRCLE
  8
_0-1_ZISSEN1
  6
CONTINUOUS
 62
    7
 10
583.59976401189556
 20
455.40966229343042
 40
3
  0
ARC
  8
_0-1_ZISSEN1
  6
CONTINUOUS
 62
    7
 10
480.59977001189554
 20
567.07182229343039
 40
2
 50
270
 51
90
  0
LINE
  8
_0-3_CL1
  6
CENTERX2
 62
    7
 10
479.59977301189559
 20
570.07183229343036
 11
479.59977301189559
 21
564.07181229343041
  0
LINE
  8
_0-1_ZISSEN1
  6
CONTINUOUS
 62
    7
 10
484.59977101189565
 20
597.07182229343039
 11
484.59977101189565
 21
557.07182229343016
  0
LINE
  8
_0-1_ZISSEN1
  6
CONTINUOUS
 62
    7
 10
486.59976401189556
 20
557.07182229343016
 11
486.59976401189556
 21
595.07182229343027
  0
LINE
  8
_0-1_ZISSEN1
  6
CONTINUOUS
 62
    7
 10
594.59976401189658
 20
597.07182229343039
 11
594.59976401189658
 21
557.07182229343016
  0
ARC
  8
_0-1_ZISSEN1
  6
CONTINUOUS
 62
    7
 10
532.59975401189558
 20
495.90967229343039
 40
2
 50
90
 51
180
  0
LINE
  8
_0-1_ZISSEN1
  6
CONTINUOUS
 62
    7
 10
536.59977401189553
 20
494.90966229343047
 11
530.59973401189563
 21
494.90966229343047
  0
LINE
  8
_0-1_ZISSEN1
  6
CONTINUOUS
 62
    7
 10
484.59977101189565
 20
494.90966229343047
 11
594.59976401189658
 21
494.90966229343047
  0
LINE
  8
_0-1_ZISSEN1
  6
CONTINUOUS
 62
    7
 10
530.59973401189563
 20
495.90967229343039
 11
530.59973401189563
 21
494.90966229343047
  0
LINE
  8
_0-1_ZISSEN1
  6
CONTINUOUS
 62
    7
 10
475.59977201189645
 20
557.77893229343044
 11
475.59977201189645
 21
565.07182229343027
  0
LINE
  8
_0-1_ZISSEN1
  6
CONTINUOUS
 62
    7
 10
476.30688101189548
 20
557.07182229343016
 11
475.59977201189645
 21
557.77893229343044
  0
LINE
  8
_0-1_ZISSEN1
  6
CONTINUOUS
 62
    7
 10
480.59977001189554
 20
565.07182229343027
 11
475.59977201189645
 21
565.07182229343027
  0
ARC
  8
_0-1_ZISSEN1
  6
CONTINUOUS
 62
    7
 10
503.59976401189556
 20
556.0718122934303
 40
2
 50
180
 51
270
  0
ARC
  8
_0-1_ZISSEN1
  6
CONTINUOUS
 62
    7
 10
505.5997640118955
 20
556.0718122934303
 40
2
 50
270
 51
0
  0
LINE
  8
_0-1_ZISSEN1
  6
CONTINUOUS
 62
    7
 10
503.59976401189556
 20
554.07181229343018
 11
505.5997640118955
 21
554.07181229343018
  0
LINE
  8
_0-1_ZISSEN1
  6
CONTINUOUS
 62
    7
 10
507.59977401189553
 20
557.07182229343016
 11
501.59975401189558
 21
557.07182229343016
  0
LINE
  8
_0-1_ZISSEN1
  6
CONTINUOUS
 62
    7
 10
501.59975401189558
 20
556.0718122934303
 11
501.59975401189558
 21
557.07182229343016
  0
LINE
  8
_0-1_ZISSEN1
  6
CONTINUOUS
 62
    7
 10
507.59977401189553
 20
556.0718122934303
 11
507.59977401189553
 21
557.07182229343016
  0
ARC
  8
_0-1_ZISSEN1
  6
CONTINUOUS
 62
    7
 10
534.59976401189556
 20
495.90967229343039
 40
2
 50
0
 51
90
  0
LINE
  8
_0-1_ZISSEN1
  6
CONTINUOUS
 62
    7
 10
536.59977401189553
 20
495.90967229343039
 11
536.59977401189553
 21
494.90966229343047
  0
LINE
  8
_0-1_ZISSEN1
  6
CONTINUOUS
 62
    7
 10
532.59975401189558
 20
497.90967229343045
 11
534.59976401189556
 21
497.90967229343045
  0
ARC
  8
_0-1_ZISSEN1
  6
CONTINUOUS
 62
    7
 10
579.59976401189556
 20
556.0718122934303
 40
2
 50
270
 51
318.59020000000038
  0
LINE
  8
_0-1_ZISSEN1
  6
CONTINUOUS
 62
    7
 10
581.59977401189553
 20
557.07182229343016
 11
575.59975401189649
 21
557.07182229343016
  0
ARC
  8
_0-1_ZISSEN1
  6
CONTINUOUS
 62
    7
 10
577.59975401189558
 20
556.0718122934303
 40
2
 50
180
 51
270
  0
ARC
  8
_0-1_ZISSEN1
  6
CONTINUOUS
 62
    7
 10
573.59975401189649
 20
556.0718122934303
 40
2
 50
180
 51
270
  0
ARC
  8
_0-1_ZISSEN1
  6
CONTINUOUS
 62
    7
 10
575.59976401189556
 20
556.0718122934303
 40
2
 50
270
 51
300.00002999999901
  0
LINE
  8
_0-1_ZISSEN1
  6
CONTINUOUS
 62
    7
 10
573.59975401189649
 20
554.07181229343018
 11
575.59976401189556
 21
554.07181229343018
  0
LINE
  8
_0-1_ZISSEN1
  6
CONTINUOUS
 62
    7
 10
577.59975401189558
 20
554.07181229343018
 11
579.59976401189556
 21
554.07181229343018
  0
LINE
  8
_0-1_ZISSEN1
  6
CONTINUOUS
 62
    7
 10
577.59977401189553
 20
557.07182229343016
 11
571.59975401189649
 21
557.07182229343016
  0
LINE
  8
_0-1_ZISSEN1
  6
CONTINUOUS
 62
    7
 10
571.59975401189649
 20
556.0718122934303
 11
571.59975401189649
 21
557.07182229343016
  0
LINE
  8
_0-1_ZISSEN1
  6
CONTINUOUS
 62
    7
 10
575.59975401189649
 20
556.0718122934303
 11
575.59975401189649
 21
557.07182229343016
  0
ARC
  8
_0-1_ZISSEN1
  6
CONTINUOUS
 62
    7
 10
582.59976401189556
 20
556.0718122934303
 40
2
 50
180
 51
270
  0
ARC
  8
_0-1_ZISSEN1
  6
CONTINUOUS
 62
    7
 10
584.59976401189556
 20
556.0718122934303
 40
2
 50
270
 51
0
  0
LINE
  8
_0-1_ZISSEN1
  6
CONTINUOUS
 62
    7
 10
582.59976401189556
 20
554.07181229343018
 11
584.59976401189556
 21
554.07181229343018
  0
LINE
  8
_0-1_ZISSEN1
  6
CONTINUOUS
 62
    7
 10
586.59977401189644
 20
557.07182229343016
 11
580.59975401189558
 21
557.07182229343016
  0
LINE
  8
_0-1_ZISSEN1
  6
CONTINUOUS
 62
    7
 10
580.59975401189558
 20
556.0718122934303
 11
580.59975401189558
 21
557.07182229343016
  0
LINE
  8
_0-1_ZISSEN1
  6
CONTINUOUS
 62
    7
 10
586.59977401189644
 20
556.0718122934303
 11
586.59977401189644
 21
557.07182229343016
  0
CIRCLE
  8
_0-1_ZISSEN1
  6
CONTINUOUS
 62
    7
 10
533.59976401189556
 20
582.07182229343039
 40
3
  0
LINE
  8
_0-1_ZISSEN1
  6
CONTINUOUS
 62
    7
 10
486.59976401189556
 20
594.57182229343016
 11
594.59976401189658
 21
594.57182229343016
  0
LINE
  8
_0-1_ZISSEN1
  6
CONTINUOUS
 62
    7
 10
484.59977101189565
 20
597.07182229343039
 11
594.59976401189658
 21
597.07182229343039
  0
LINE
  8
_0-1_ZISSEN1
  6
CONTINUOUS
 62
    7
 10
486.59976401189556
 20
595.07182229343027
 11
594.59976401189658
 21
595.07182229343027
  0
LINE
  8
_0-1_ZISSEN1
  6
CONTINUOUS
 62
    7
 10
475.59977201189645
 20
594.36471229343033
 11
475.59977201189645
 21
586.07184229343022
  0
ARC
  8
_0-1_ZISSEN1
  6
CONTINUOUS
 62
    7
 10
480.59977001189554
 20
584.07183229343013
 40
2
 50
270
 51
90
  0
LINE
  8
_0-3_CL1
  6
CENTERX2
 62
    7
 10
477.59977201189554
 20
584.07183229343013
 11
484.59977101189565
 21
584.07183229343013
  0
LINE
  8
_0-3_CL1
  6
CENTERX2
 62
    7
 10
477.59977201189554
 20
567.07182229343039
 11
483.59976701189566
 21
567.07182229343039
  0
LINE
  8
_0-1_ZISSEN1
  6
CONTINUOUS
 62
    7
 10
475.59977201189645
 20
582.07182229343039
 11
475.59977201189645
 21
569.07183229343013
  0
LINE
  8
_0-1_ZISSEN1
  6
CONTINUOUS
 62
    7
 10
480.59977001189554
 20
569.07183229343013
 11
475.59977201189645
 21
569.07183229343013
  0
LINE
  8
_0-3_CL1
  6
CENTERX2
 62
    7
 10
479.59977301189559
 20
587.07184229343011
 11
479.59977301189559
 21
581.07182229343016
  0
LINE
  8
_0-1_ZISSEN1
  6
CONTINUOUS
 62
    7
 10
480.59977001189554
 20
582.07182229343039
 11
475.59977201189645
 21
582.07182229343039
  0
LINE
  8
_0-1_ZISSEN1
  6
CONTINUOUS
 62
    7
 10
480.59977001189554
 20
586.07184229343022
 11
475.59977201189645
 21
586.07184229343022
  0
LINE
  8
_0-1_ZISSEN1
  6
CONTINUOUS
 62
    7
 10
476.30688101189548
 20
595.07182229343027
 11
484.59977101189565
 21
595.07182229343027
  0
LINE
  8
_0-1_ZISSEN1
  6
CONTINUOUS
 62
    7
 10
475.59977201189645
 20
594.36471229343033
 11
476.30688101189548
 21
595.07182229343027
  0
LINE
  8
_0-1_ZISSEN1
  6
CONTINUOUS
 62
    7
 10
606.59975401189558
 20
490.90965229343038
 11
606.59975401189558
 21
473.05063229343034
  0
LINE
  8
_0-1_ZISSEN1
  6
CONTINUOUS
 62
    7
 10
706.45624401189548
 20
490.90965229343038
 11
706.45624401189548
 21
473.05063229343034
  0
LINE
  8
_0-1_ZISSEN1
  6
CONTINUOUS
 62
    7
 10
714.86734401189563
 20
464.90966229343047
 11
714.86734401189563
 21
491.9096522934305
  0
LINE
  8
_0-1_ZISSEN1
  6
CONTINUOUS
 62
    7
 10
716.46734401189542
 20
464.90966229343047
 11
716.46734401189542
 21
491.9096522934305
  0
LINE
  8
_0-1_ZISSEN1
  6
CONTINUOUS
 62
    7
 10
704.16735401189521
 20
464.90966229343047
 11
704.16735401189521
 21
491.9096522934305
  0
LINE
  8
_0-1_ZISSEN1
  6
CONTINUOUS
 62
    7
 10
716.66734401189569
 20
464.90966229343047
 11
716.66734401189569
 21
491.9096522934305
  0
LINE
  8
_0-1_ZISSEN1
  6
CONTINUOUS
 62
    7
 10
720.66733401189549
 20
391.11677529343035
 11
720.66733401189549
 21
494.90966229343047
  0
LINE
  8
_0-1_ZISSEN1
  6
CONTINUOUS
 62
    7
 10
721.16733401189549
 20
494.90966229343047
 11
721.16733401189549
 21
387.90966429343041
  0
LINE
  8
_0-1_ZISSEN1
  6
CONTINUOUS
 62
    7
 10
723.16734401189547
 20
494.90966229343047
 11
723.16734401189547
 21
387.90966429343041
  0
LINE
  8
_0-1_ZISSEN1
  6
CONTINUOUS
 62
    7
 10
683.16733401189549
 20
494.90966229343047
 11
683.16733401189549
 21
387.90966429343041
  0
LINE
  8
_0-1_ZISSEN1
  6
CONTINUOUS
 62
    7
 10
608.0997540118957
 20
393.90965929343025
 11
608.0997540118957
 21
447.28462853490038
  0
LINE
  8
_0-1_ZISSEN1
  6
CONTINUOUS
 62
    7
 10
608.59976401189556
 20
393.90965929343025
 11
608.59976401189533
 21
447.28462853490038
  0
LINE
  8
_0-3_CL1
  6
CENTERX2
 62
    7
 10
599.59978401189551
 20
392.90965629343049
 11
599.59978401189551
 21
384.9096662934304
  0
LINE
  8
_0-1_ZISSEN1
  6
CONTINUOUS
 62
    7
 10
602.89266401189548
 20
389.90967029343045
 11
602.89266401189548
 21
387.90966429343041
  0
LINE
  8
_0-1_ZISSEN1
  6
CONTINUOUS
 62
    7
 10
603.59976401189556
 20
389.90966429343047
 11
603.59976401189556
 21
387.90966429343041
  0
LINE
  8
_0-1_ZISSEN1
  6
CONTINUOUS
 62
    7
 10
606.59975401189558
 20
470.49611229343043
 11
606.59975401189558
 21
465.90967229343039
  0
LINE
  8
_0-1_ZISSEN1
  6
CONTINUOUS
 62
    7
 10
702.66734401189547
 20
393.90965929343025
 11
702.66734401189547
 21
457.40966229343047
  0
LINE
  8
_0-1_ZISSEN1
  6
CONTINUOUS
 62
    7
 10
714.86734401189563
 20
393.40965729343037
 11
714.86734401189563
 21
457.90964229343024
  0
LINE
  8
_0-1_ZISSEN1
  6
CONTINUOUS
 62
    7
 10
716.46734401189542
 20
393.40965729343037
 11
716.46734401189542
 21
457.90964229343024
  0
LINE
  8
_0-1_ZISSEN1
  6
CONTINUOUS
 62
    7
 10
716.66734401189569
 20
393.40965729343037
 11
716.66734401189569
 21
457.90964229343024
  0
LINE
  8
_0-1_ZISSEN1
  6
CONTINUOUS
 62
    7
 10
702.16734401189558
 20
393.40965729343037
 11
702.16734401189558
 21
457.90964229343024
  0
LINE
  8
_0-1_ZISSEN1
  6
CONTINUOUS
 62
    7
 10
719.96022401189532
 20
390.40966629343035
 11
683.16733401189549
 21
390.40966629343035
  0
LINE
  8
_0-1_ZISSEN1
  6
CONTINUOUS
 62
    7
 10
719.96022401189532
 20
389.90966429343047
 11
683.16733401189549
 21
389.90966429343047
  0
LINE
  8
_0-1_ZISSEN1
  6
CONTINUOUS
 62
    7
 10
683.16733401189549
 20
387.90966429343041
 11
723.16734401189547
 21
387.90966429343041
  0
ARC
  8
_0-1_ZISSEN1
  6
CONTINUOUS
 62
    7
 10
682.16733401189549
 20
392.90965629343049
 40
2
 50
180
 51
270
  0
LINE
  8
_0-3_CL1
  6
CENTERX2
 62
    7
 10
693.16734401189558
 20
392.90966229343047
 11
693.16734401189558
 21
384.9096662934304
  0
LINE
  8
_0-1_ZISSEN1
  6
CONTINUOUS
 62
    7
 10
683.16733401189549
 20
390.90964929343028
 11
683.16733401189549
 21
396.90966929343023
  0
LINE
  8
_0-1_ZISSEN1
  6
CONTINUOUS
 62
    7
 10
682.16733401189549
 20
390.90964929343028
 11
683.16733401189549
 21
390.90964929343028
  0
LINE
  8
_0-1_ZISSEN1
  6
CONTINUOUS
 62
    7
 10
691.16733401189538
 20
389.90967029343045
 11
691.16733401189538
 21
387.90966429343041
  0
LINE
  8
_0-1_ZISSEN1
  6
CONTINUOUS
 62
    7
 10
682.16733401189549
 20
396.90966929343023
 11
683.16733401189549
 21
396.90966929343023
  0
ARC
  8
_0-1_ZISSEN1
  6
CONTINUOUS
 62
    7
 10
682.16733401189549
 20
394.90966229343036
 40
2
 50
90
 51
180
  0
LINE
  8
_0-1_ZISSEN1
  6
CONTINUOUS
 62
    7
 10
680.16732401189597
 20
394.90966229343036
 11
680.16732401189597
 21
392.90965629343049
  0
ARC
  8
_0-1_ZISSEN1
  6
CONTINUOUS
 62
    7
 10
682.16733401189549
 20
422.40965429343044
 40
2
 50
180
 51
270
  0
LINE
  8
_0-1_ZISSEN1
  6
CONTINUOUS
 62
    7
 10
683.16733401189549
 20
420.4096472934304
 11
683.16733401189549
 21
426.40966229343036
  0
LINE
  8
_0-1_ZISSEN1
  6
CONTINUOUS
 62
    7
 10
682.16733401189549
 20
420.4096472934304
 11
683.16733401189549
 21
420.4096472934304
  0
LINE
  8
_0-1_ZISSEN1
  6
CONTINUOUS
 62
    7
 10
682.16733401189549
 20
426.40966229343036
 11
683.16733401189549
 21
426.40966229343036
  0
ARC
  8
_0-1_ZISSEN1
  6
CONTINUOUS
 62
    7
 10
682.16733401189549
 20
424.40966029343048
 40
2
 50
90
 51
180
  0
LINE
  8
_0-1_ZISSEN1
  6
CONTINUOUS
 62
    7
 10
680.16732401189597
 20
424.40966029343048
 11
680.16732401189597
 21
422.40965429343044
  0
LINE
  8
_0-1_ZISSEN1
  6
CONTINUOUS
 62
    7
 10
702.66734401189547
 20
393.90965929343025
 11
714.86734401189563
 21
393.90965929343025
  0
LINE
  8
_0-1_ZISSEN1
  6
CONTINUOUS
 62
    7
 10
702.16734401189558
 20
393.40965729343037
 11
716.66734401189569
 21
393.40965729343037
  0
LINE
  8
_0-1_ZISSEN1
  6
CONTINUOUS
 62
    7
 10
695.16734401189558
 20
389.90967029343045
 11
695.16734401189558
 21
387.90966429343041
  0
LINE
  8
_0-1_ZISSEN1
  6
CONTINUOUS
 62
    7
 10
719.96022401189532
 20
390.40966629343035
 11
720.66733401189549
 21
391.11677529343035
  0
LINE
  8
_0-1_ZISSEN1
  6
CONTINUOUS
 62
    7
 10
719.96022401189532
 20
389.90966429343047
 11
721.16733401189549
 21
389.90966429343047
  0
ARC
  8
_0-1_ZISSEN1
  6
CONTINUOUS
 62
    7
 10
682.16733401189549
 20
456.40966229343036
 40
2
 50
90
 51
180
  0
LINE
  8
_0-1_ZISSEN1
  6
CONTINUOUS
 62
    7
 10
683.16733401189549
 20
452.40965229343044
 11
683.16733401189549
 21
458.40967229343039
  0
LINE
  8
_0-1_ZISSEN1
  6
CONTINUOUS
 62
    7
 10
682.16733401189549
 20
452.40965229343044
 11
683.16733401189549
 21
452.40965229343044
  0
ARC
  8
_0-1_ZISSEN1
  6
CONTINUOUS
 62
    7
 10
682.16733401189549
 20
454.4096522934305
 40
2
 50
180
 51
270
  0
LINE
  8
_0-1_ZISSEN1
  6
CONTINUOUS
 62
    7
 10
680.16732401189597
 20
456.40966229343036
 11
680.16732401189597
 21
454.4096522934305
  0
LINE
  8
_0-1_ZISSEN1
  6
CONTINUOUS
 62
    7
 10
682.16733401189549
 20
458.40967229343039
 11
683.16733401189549
 21
458.40967229343039
  0
LINE
  8
_0-1_ZISSEN1
  6
CONTINUOUS
 62
    7
 10
702.66734401189547
 20
457.40966229343047
 11
714.86734401189563
 21
457.40966229343047
  0
LINE
  8
_0-1_ZISSEN1
  6
CONTINUOUS
 62
    7
 10
714.86734401189563
 20
473.05063229343034
 11
706.45624401189548
 21
473.05063229343034
  0
LINE
  8
_0-1_ZISSEN1
  6
CONTINUOUS
 62
    7
 10
714.86734401189563
 20
470.49611229343043
 11
706.45624401189548
 21
470.49611229343043
  0
LINE
  8
_0-1_ZISSEN1
  6
CONTINUOUS
 62
    7
 10
714.86734401189563
 20
465.90967229343039
 11
706.45624401189548
 21
465.90967229343039
  0
LINE
  8
_0-1_ZISSEN1
  6
CONTINUOUS
 62
    7
 10
702.16734401189558
 20
457.90964229343024
 11
716.66734401189569
 21
457.90964229343024
  0
LINE
  8
_0-1_ZISSEN1
  6
CONTINUOUS
 62
    7
 10
704.16735401189521
 20
464.90966229343047
 11
716.66734401189569
 21
464.90966229343047
  0
LINE
  8
_0-1_ZISSEN1
  6
CONTINUOUS
 62
    7
 10
710.16732401189552
 20
462.90966229343042
 11
713.1673340118956
 21
462.90966229343042
  0
LINE
  8
_0-1_ZISSEN1
  6
CONTINUOUS
 62
    7
 10
710.16732401189552
 20
459.90965229343044
 11
713.1673340118956
 21
459.90965229343044
  0
ARC
  8
_0-1_ZISSEN1
  6
CONTINUOUS
 62
    7
 10
710.16732401189552
 20
461.40965229343044
 40
1.5
 50
90
 51
270
  0
LINE
  8
_0-1_ZISSEN1
  6
CONTINUOUS
 62
    7
 10
706.45624401189548
 20
470.49611229343043
 11
706.45624401189548
 21
465.90967229343039
  0
ARC
  8
_0-1_ZISSEN1
  6
CONTINUOUS
 62
    7
 10
713.1673340118956
 20
461.40965229343044
 40
1.5
 50
270
 51
90
  0
ARC
  8
_0-1_ZISSEN1
  6
CONTINUOUS
 62
    7
 10
598.59977401189553
 20
567.07182229343039
 40
2
 50
90
 51
270
  0
LINE
  8
_0-3_CL1
  6
CENTERX2
 62
    7
 10
599.59978401189551
 20
570.07183229343036
 11
599.59978401189551
 21
564.07181229343041
  0
LINE
  8
_0-1_ZISSEN1
  6
CONTINUOUS
 62
    7
 10
603.59976401189556
 20
557.77893229343044
 11
603.59976401189556
 21
565.07182229343027
  0
LINE
  8
_0-1_ZISSEN1
  6
CONTINUOUS
 62
    7
 10
603.59976401189556
 20
557.77893229343044
 11
602.89266401189548
 21
557.07182229343016
  0
LINE
  8
_0-1_ZISSEN1
  6
CONTINUOUS
 62
    7
 10
598.59977401189553
 20
565.07182229343027
 11
603.59976401189556
 21
565.07182229343027
  0
LINE
  8
_0-1_ZISSEN1
  6
CONTINUOUS
 62
    7
 10
683.16733401189549
 20
494.90966229343047
 11
723.16734401189547
 21
494.90966229343047
  0
ARC
  8
_0-1_ZISSEN1
  6
CONTINUOUS
 62
    7
 10
707.1673340118956
 20
495.90967229343039
 40
2
 50
90
 51
180
  0
ARC
  8
_0-1_ZISSEN1
  6
CONTINUOUS
 62
    7
 10
709.16734401189547
 20
495.90967229343039
 40
2
 50
0
 51
90
  0
LINE
  8
_0-1_ZISSEN1
  6
CONTINUOUS
 62
    7
 10
706.45624401189548
 20
490.90965229343038
 11
714.86734401189563
 21
490.90965229343038
  0
LINE
  8
_0-1_ZISSEN1
  6
CONTINUOUS
 62
    7
 10
704.16735401189521
 20
491.9096522934305
 11
716.66734401189569
 21
491.9096522934305
  0
LINE
  8
_0-1_ZISSEN1
  6
CONTINUOUS
 62
    7
 10
711.16735401189533
 20
494.90966229343047
 11
705.1673340118956
 21
494.90966229343047
  0
LINE
  8
_0-1_ZISSEN1
  6
CONTINUOUS
 62
    7
 10
705.1673340118956
 20
495.90967229343039
 11
705.1673340118956
 21
494.90966229343047
  0
LINE
  8
_0-1_ZISSEN1
  6
CONTINUOUS
 62
    7
 10
711.16735401189533
 20
495.90967229343039
 11
711.16735401189533
 21
494.90966229343047
  0
LINE
  8
_0-1_ZISSEN1
  6
CONTINUOUS
 62
    7
 10
707.1673340118956
 20
497.90967229343045
 11
709.16734401189547
 21
497.90967229343045
  0
LINE
  8
_0-1_ZISSEN1
  6
CONTINUOUS
 62
    7
 10
603.59976401189556
 20
594.36471229343033
 11
603.59976401189556
 21
588.77180229343048
  0
LINE
  8
_0-1_ZISSEN1
  6
CONTINUOUS
 62
    7
 10
608.59976401189556
 20
576.57181229343018
 11
608.59976401189556
 21
588.77180229343048
  0
LINE
  8
_0-1_ZISSEN1
  6
CONTINUOUS
 62
    7
 10
608.0997540118957
 20
576.57181229343018
 11
608.0997540118957
 21
588.77180229343048
  0
LINE
  8
_0-1_ZISSEN1
  6
CONTINUOUS
 62
    7
 10
603.59976401189556
 20
576.57181229343018
 11
603.59976401189556
 21
569.07183229343013
  0
LINE
  8
_0-1_ZISSEN1
  6
CONTINUOUS
 62
    7
 10
598.59977401189553
 20
569.07183229343013
 11
603.59976401189556
 21
569.07183229343013
  0
LINE
  8
_0-1_ZISSEN1
  6
CONTINUOUS
 62
    7
 10
603.59976401189556
 20
594.36471229343033
 11
602.89266401189548
 21
595.07182229343027
  0
INSERT
  2
-000-_D24
  8
_0-2_SUNPOU
 10
1607.6351157853906
 20
-1344.5987146791838
 41
1
 42
1
 50
0
  0
INSERT
  2
-001-_D25
  8
_0-2_SUNPOU
 10
1607.6351157853906
 20
-1344.5987146791838
 41
1
 42
1
 50
0
  0
INSERT
  2
-002-_D26
  8
_0-2_SUNPOU
 10
1607.6351157853906
 20
-1344.5987146791838
 41
1
 42
1
 50
0
  0
INSERT
  2
-003-_D27
  8
_0-2_SUNPOU
 10
1607.6351157853906
 20
-1344.5987146791838
 41
1
 42
1
 50
0
  0
INSERT
  2
-004-_D28
  8
_0-2_SUNPOU
 10
1607.6351157853906
 20
-1344.5987146791838
 41
1
 42
1
 50
0
  0
INSERT
  2
-005-_D29
  8
_0-2_SUNPOU
 10
1607.6351157853906
 20
-1344.5987146791838
 41
1
 42
1
 50
0
  0
INSERT
  2
-006-_D30
  8
_0-2_SUNPOU
 10
1607.6351157853906
 20
-1344.5987146791838
 41
1
 42
1
 50
0
  0
INSERT
  2
-007-_D31
  8
_0-2_SUNPOU
 10
1607.6351157853906
 20
-1344.5987146791838
 41
1
 42
1
 50
0
  0
INSERT
  2
-008-_D32
  8
_0-2_SUNPOU
 10
1607.6351157853906
 20
-1344.5987146791838
 41
1
 42
1
 50
0
  0
INSERT
  2
-009-_D33
  8
_0-2_SUNPOU
 10
1607.6351157853906
 20
-1344.5987146791838
 41
1
 42
1
 50
0
  0
INSERT
  2
-010-_D34
  8
_0-2_SUNPOU
 10
1607.6351157853906
 20
-1344.5987146791838
 41
1
 42
1
 50
0
  0
INSERT
  2
-011-_D35
  8
_0-2_SUNPOU
 10
1607.6351157853906
 20
-1344.5987146791838
 41
1
 42
1
 50
0
  0
INSERT
  2
-012-_D36
  8
_0-2_SUNPOU
 10
1607.6351157853906
 20
-1344.5987146791838
 41
1
 42
1
 50
0
  0
LINE
  8
_0-1_ZISSEN1
  6
CONTINUOUS
 62
    7
 10
603.59976401189556
 20
453.60462853489923
 11
608.59976401189556
 21
453.60462853489923
  0
LINE
  8
_0-1_ZISSEN1
  6
CONTINUOUS
 62
    7
 10
608.0997540118957
 20
453.60462853489923
 11
608.0997540118957
 21
457.40966229343047
  0
LINE
  8
_0-1_ZISSEN1
  6
CONTINUOUS
 62
    7
 10
608.59976401189556
 20
453.60462853489923
 11
608.59976401189556
 21
457.40966229343047
  0
LINE
  8
_0-1_ZISSEN1
  6
CONTINUOUS
 62
    7
 10
603.59976401189556
 20
453.60462853489923
 11
603.59976401189556
 21
447.28462853490038
  0
LINE
  8
_0-1_ZISSEN1
  6
CONTINUOUS
 62
    7
 10
603.59976401189556
 20
447.28462853490038
 11
608.59976401189556
 21
447.28462853490038
  0
ARC
  8
_0-1_ZISSEN1
  6
CONTINUOUS
 62
    7
 10
604.59976401189556
 20
451.4446485349003
 40
2
 50
0
 51
90
  0
LINE
  8
_0-1_ZISSEN1
  6
CONTINUOUS
 62
    7
 10
603.59976401189556
 20
453.4446585348993
 11
603.59976401189556
 21
447.44464853490018
  0
ARC
  8
_0-1_ZISSEN1
  6
CONTINUOUS
 62
    7
 10
604.59976401189556
 20
449.44463853490026
 40
2
 50
270
 51
0
  0
LINE
  8
_0-1_ZISSEN1
  6
CONTINUOUS
 62
    7
 10
606.59977401189553
 20
451.4446485349003
 11
606.59977401189553
 21
449.44463853490026
  0
LINE
  8
_0-1_ZISSEN1
  6
CONTINUOUS
 62
    7
 10
604.59976401189556
 20
447.44463853490021
 11
603.59976401189556
 21
447.44463853490021
  0
LINE
  8
_0-1_ZISSEN1
  6
CONTINUOUS
 62
    7
 10
604.59976401189556
 20
453.4446585348993
 11
603.59976401189556
 21
453.4446585348993
  0
INSERT
  2
-013-_D37
  8
_0-2_SUNPOU
 10
1607.6351157853906
 20
-1344.5987146791838
 41
1
 42
1
 50
0
  0
INSERT
  2
-014-_D38
  8
_0-2_SUNPOU
 10
1607.6351157853906
 20
-1344.5987146791838
 41
1
 42
1
 50
0
  0
INSERT
  2
-015-_D39
  8
_0-2_SUNPOU
 10
1607.6351157853906
 20
-1344.5987146791838
 41
1
 42
1
 50
0
  0
INSERT
  2
-016-_D40
  8
_0-2_SUNPOU
 10
1607.6351157853906
 20
-1344.5987146791838
 41
1
 42
1
 50
0
  0
INSERT
  2
-017-_D41
  8
_0-2_SUNPOU
 10
1607.6351157853906
 20
-1344.5987146791838
 41
1
 42
1
 50
0
  0
INSERT
  2
-018-_D42
  8
_0-2_SUNPOU
 10
1607.6351157853906
 20
-1344.5987146791838
 41
1
 42
1
 50
0
  0
LINE
  8
_0-1_ZISSEN1
  6
CONTINUOUS
 62
    7
 10
492.09976401189647
 20
590.57182229343027
 11
522.09976401189556
 21
590.57182229343027
  0
LINE
  8
_0-1_ZISSEN1
  6
CONTINUOUS
 62
    7
 10
492.09976401189647
 20
590.57182229343027
 11
522.09976401189556
 21
590.57182229343027
  0
LINE
  8
_0-1_ZISSEN1
  6
CONTINUOUS
 62
    7
 10
522.09976401189556
 20
590.57182229343027
 11
492.09976401189647
 21
590.57182229343027
  0
LINE
  8
_0-1_ZISSEN1
  6
CONTINUOUS
 62
    7
 10
492.09976401189647
 20
590.57182229343027
 11
492.09976401189647
 21
580.07182229343027
  0
LINE
  8
_0-1_ZISSEN1
  6
CONTINUOUS
 62
    7
 10
492.09976401189647
 20
580.07182229343027
 11
522.09976401189556
 21
580.07182229343027
  0
LINE
  8
_0-1_ZISSEN1
  6
CONTINUOUS
 62
    7
 10
522.09976401189556
 20
580.07182229343027
 11
522.09976401189556
 21
590.57182229343027
  0
LINE
  8
_0-1_ZISSEN1
  6
CONTINUOUS
 62
    7
 10
-400.43558776159949
 20
2530.5316842660454
 11
-400.43558776159949
 21
2524.9387742660442
  0
TEXT
  8
_0-2_SUNPOU
 62
    7
 10
633.2886873522184
 20
580.8371268008832
 40
3.5
 41
1
 50
0
  1
端子台カバー
  0
INSERT
  2
-019-_D43
  8
_0-2_SUNPOU
 10
1607.6351157853906
 20
-1344.5987146791838
 41
1
 42
1
 50
0
  0
TEXT
  8
_0-2_SUNPOU
 62
    7
 10
1981.8214282160845
 20
-1283.7307676201076
 40
3.5
 41
1
 50
0
  1
縮尺 1/1
  0
ENDSEC
  0
EOF
